  0
SECTION
  2
HEADER
  9
$ACADVER
  1
AC1018
  9
$HANDSEED
  5
FFFFFF
  9
$EXTMAX
 10
7573490.37000000011
 20
5725033.87999999989
 30
1000000.00
  9
$EXTMIN
 10
7571200.40000000037
 20
5723760.62999999989
 30
0.00
  9
$LIMMIN
 10
7571200.40000000037
 20
5723760.62999999989
  9
$LIMMAX
 10
7573490.37000000011
 20
5725033.87999999989
  9
$DIMASZ
 40
2.5
  9
$DIMGAP
 40
0.625
  9
$INSUNITS
 70
6
  9
$DIMEXO
 40
0.625
  9
$DIMTXT
 40
2.5
  9
$DIMSTYLE
  2
Standard
  9
$PLIMMIN
 10
0.0
 20
0.0
  9
$PLIMMAX
 10
210.0
 20
297.0
  9
$DIMEXE
 40
1.25
  9
$TEXTSIZE
 40
2.5
  9
$TEXTSTYLE
  7
Standard
  9
$LWDISPLAY
290
1
  9
$TDCREATE
 40
44937.900645058
  9
$TDUCREATE
 40
44937.858978391
  9
$TDUPDATE
 40
44937.900645058
  9
$TDUUPDATE
 40
44937.858978391
  9
$TDINDWG
 40
0.0
  9
$TDUSRTIMER
 40
0.0
  9
$USRTIMER
 70
1
  0
ENDSEC
  0
SECTION
  2
CLASSES
  0
CLASS
  1
WIPEOUT
  2
AcDbWipeout
  3
WipeOut
 90
127
 91
1
280
0
281
1
  0
CLASS
  1
WIPEOUTVARIABLES
  2
AcDbWipeoutVariables
  3
WipeOut
 90
0
 91
1
280
0
281
0
  0
ENDSEC
  0
SECTION
  2
TABLES
  0
TABLE
  2
VPORT
  5
1
100
AcDbSymbolTable
 70
1
  0
VPORT
  5
2
100
AcDbSymbolTableRecord
100
AcDbViewportTableRecord
  2
*ACTIVE
 70
0
 10
0.0
 20
0.0
 11
1.0
 21
1.0
 12
7572345.38
 22
5724397.25
 13
0.0
 23
0.0
 14
1.0
 24
1.0
 15
0.0
 25
0.0
 16
0.0
 26
0.0
 36
1.0
 17
0.0
 27
0.0
 37
0.0
 40
1273.25
 41
1.80
 42
50.0
 43
0.0
 44
0.0
 50
0.0
 51
0.0
 71
0
 72
100
 73
1
 74
1
 75
0
 76
0
 77
0
 78
0
  0
ENDTAB
  0
TABLE
  2
LTYPE
  5
3
100
AcDbSymbolTable
 70
3
  0
LTYPE
  5
4
100
AcDbSymbolTableRecord
100
AcDbLinetypeTableRecord
  2
ByBlock
 70
0
  3

 72
65
 73
0
 40
0.0
  0
LTYPE
  5
5
100
AcDbSymbolTableRecord
100
AcDbLinetypeTableRecord
  2
ByLayer
 70
0
  3

 72
65
 73
0
 40
0.0
  0
LTYPE
  5
6
100
AcDbSymbolTableRecord
100
AcDbLinetypeTableRecord
  2
CONTINUOUS
 70
0
  3
Solid line
 72
65
 73
0
 40
0.0
  0
ENDTAB
  0
TABLE
  2
LAYER
  5
7
100
AcDbSymbolTable
 70
2
  0
LAYER
  5
8
100
AcDbSymbolTableRecord
100
AcDbLayerTableRecord
  2
0
 70
0
 62
7
  6
CONTINUOUS
370
18
390
9
  0
LAYER
  5
A
100
AcDbSymbolTableRecord
100
AcDbLayerTableRecord
  2
ObszarDR10
 70
0
 62
7
  6
CONTINUOUS
370
18
390
9
  0
ENDTAB
  0
TABLE
  2
STYLE
  5
B
100
AcDbSymbolTable
 70
2
  0
STYLE
  5
C
100
AcDbSymbolTableRecord
100
AcDbTextStyleTableRecord
  2
STANDARD
 70
0
 40
0.0
 41
1.0
 50
0.0
 71
0
  3
simplex.shx
  4

  0
STYLE
  5
D
100
AcDbSymbolTableRecord
100
AcDbTextStyleTableRecord
  2
STANDARD_ITALIC
 70
0
 40
0.0
 41
1.0
 50
15.0
 71
0
  3
simplex.shx
  4

  0
ENDTAB
  0
TABLE
  2
VIEW
  5
E
100
AcDbSymbolTable
 70
0
  0
ENDTAB
  0
TABLE
  2
UCS
  5
F
100
AcDbSymbolTable
 70
0
  0
ENDTAB
  0
TABLE
  2
APPID
  5
10
100
AcDbSymbolTable
 70
1
  0
APPID
  5
11
100
AcDbSymbolTableRecord
100
AcDbRegAppTableRecord
  2
ACAD
 70
0
  0
ENDTAB
  0
TABLE
  2
DIMSTYLE
  5
12
100
AcDbSymbolTable
 70
1
100
AcDbDimStyleTable
  0
DIMSTYLE
105
13
100
AcDbSymbolTableRecord
100
AcDbDimStyleTableRecord
  2
Standard
 70
0
340
C
  0
ENDTAB
  0
TABLE
  2
BLOCK_RECORD
  5
14
100
AcDbSymbolTable
 70
2
  0
BLOCK_RECORD
  5
15
100
AcDbSymbolTableRecord
100
AcDbBlockTableRecord
  2
*Model_Space
340
16
  0
BLOCK_RECORD
  5
17
100
AcDbSymbolTableRecord
100
AcDbBlockTableRecord
  2
*Paper_Space
340
18
  0
ENDTAB
  0
ENDSEC
  0
SECTION
  2
BLOCKS
  0
BLOCK
  5
19
100
AcDbEntity
  8
0
100
AcDbBlockBegin
  2
*Model_Space
 70
0
 10
0.0
 20
0.0
 30
0.0
  3
*Model_Space
  1

  0
ENDBLK
  5
1A
100
AcDbEntity
  8
0
100
AcDbBlockEnd
  0
BLOCK
  5
1B
100
AcDbEntity
 67
1
  8
0
100
AcDbBlockBegin
  2
*Paper_Space
 70
0
 10
0.0
 20
0.0
 30
0.0
  3
*Paper_Space
  1

  0
ENDBLK
  5
1C
100
AcDbEntity
 67
1
  8
0
100
AcDbBlockEnd
  0
ENDSEC
  0
SECTION
  2
ENTITIES
  0
POLYLINE
  5
1D
100
AcDbEntity
  8
ObszarDR10
  6
CONTINUOUS
370
18
100
AcDb2dPolyline
 66
1
 70
129
  0
VERTEX
  5
1E
100
AcDbEntity
  8
ObszarDR10
100
AcDbVertex
100
AcDb2dVertex
 10
7572076.62000000011
 20
5724181.54999999981
  0
VERTEX
  5
1F
100
AcDbEntity
  8
ObszarDR10
100
AcDbVertex
100
AcDb2dVertex
 10
7572039.70999999996
 20
5724159.0
  0
VERTEX
  5
20
100
AcDbEntity
  8
ObszarDR10
100
AcDbVertex
100
AcDb2dVertex
 10
7571853.75
 20
5724499.15000000037
  0
VERTEX
  5
21
100
AcDbEntity
  8
ObszarDR10
100
AcDbVertex
100
AcDb2dVertex
 10
7571891.05999999959
 20
5724520.45000000019
  0
SEQEND
  5
22
100
AcDbEntity
  8
ObszarDR10
  0
POLYLINE
  5
23
100
AcDbEntity
  8
ObszarDR10
  6
CONTINUOUS
370
18
100
AcDb2dPolyline
 66
1
 70
129
  0
VERTEX
  5
24
100
AcDbEntity
  8
ObszarDR10
100
AcDbVertex
100
AcDb2dVertex
 10
7571853.75
 20
5724499.15000000037
  0
VERTEX
  5
25
100
AcDbEntity
  8
ObszarDR10
100
AcDbVertex
100
AcDb2dVertex
 10
7572039.70999999996
 20
5724159.0
  0
VERTEX
  5
26
100
AcDbEntity
  8
ObszarDR10
100
AcDbVertex
100
AcDb2dVertex
 10
7572002.79000000004
 20
5724136.45000000019
  0
VERTEX
  5
27
100
AcDbEntity
  8
ObszarDR10
100
AcDbVertex
100
AcDb2dVertex
 10
7571816.45000000019
 20
5724477.87000000011
  0
VERTEX
  5
28
100
AcDbEntity
  8
ObszarDR10
100
AcDbVertex
100
AcDb2dVertex
 10
7571823.62000000011
 20
5724481.95000000019
  0
SEQEND
  5
29
100
AcDbEntity
  8
ObszarDR10
  0
POLYLINE
  5
2A
100
AcDbEntity
  8
ObszarDR10
  6
CONTINUOUS
370
18
100
AcDb2dPolyline
 66
1
 70
129
  0
VERTEX
  5
2B
100
AcDbEntity
  8
ObszarDR10
100
AcDbVertex
100
AcDb2dVertex
 10
7571816.45000000019
 20
5724477.87000000011
  0
VERTEX
  5
2C
100
AcDbEntity
  8
ObszarDR10
100
AcDbVertex
100
AcDb2dVertex
 10
7572002.79000000004
 20
5724136.45000000019
  0
VERTEX
  5
2D
100
AcDbEntity
  8
ObszarDR10
100
AcDbVertex
100
AcDb2dVertex
 10
7571965.87000000011
 20
5724113.90000000037
  0
VERTEX
  5
2E
100
AcDbEntity
  8
ObszarDR10
100
AcDbVertex
100
AcDb2dVertex
 10
7571779.16000000015
 20
5724456.58000000007
  0
SEQEND
  5
2F
100
AcDbEntity
  8
ObszarDR10
  0
POLYLINE
  5
30
100
AcDbEntity
  8
ObszarDR10
  6
CONTINUOUS
370
18
100
AcDb2dPolyline
 66
1
 70
129
  0
VERTEX
  5
31
100
AcDbEntity
  8
ObszarDR10
100
AcDbVertex
100
AcDb2dVertex
 10
7571487.20000000019
 20
5724291.5700000003
  0
VERTEX
  5
32
100
AcDbEntity
  8
ObszarDR10
100
AcDbVertex
100
AcDb2dVertex
 10
7571498.11000000034
 20
5724297.66999999993
  0
VERTEX
  5
33
100
AcDbEntity
  8
ObszarDR10
100
AcDbVertex
100
AcDb2dVertex
 10
7571592.99000000022
 20
5724123.87999999989
  0
VERTEX
  5
34
100
AcDbEntity
  8
ObszarDR10
100
AcDbVertex
100
AcDb2dVertex
 10
7571582.20999999996
 20
5724117.84999999963
  0
SEQEND
  5
35
100
AcDbEntity
  8
ObszarDR10
  0
POLYLINE
  5
36
100
AcDbEntity
  8
ObszarDR10
  6
CONTINUOUS
370
18
100
AcDb2dPolyline
 66
1
 70
129
  0
VERTEX
  5
37
100
AcDbEntity
  8
ObszarDR10
100
AcDbVertex
100
AcDb2dVertex
 10
7571654.04000000004
 20
5724158.03000000026
  0
VERTEX
  5
38
100
AcDbEntity
  8
ObszarDR10
100
AcDbVertex
100
AcDb2dVertex
 10
7571678.20999999996
 20
5724171.54999999981
  0
VERTEX
  5
39
100
AcDbEntity
  8
ObszarDR10
100
AcDbVertex
100
AcDb2dVertex
 10
7571725.69000000041
 20
5724198.11000000034
  0
VERTEX
  5
3A
100
AcDbEntity
  8
ObszarDR10
100
AcDbVertex
100
AcDb2dVertex
 10
7571822.16999999993
 20
5724022.75
  0
VERTEX
  5
3B
100
AcDbEntity
  8
ObszarDR10
100
AcDbVertex
100
AcDb2dVertex
 10
7571751.59999999963
 20
5723979.33999999985
  0
SEQEND
  5
3C
100
AcDbEntity
  8
ObszarDR10
  0
POLYLINE
  5
3D
100
AcDbEntity
  8
ObszarDR10
  6
CONTINUOUS
370
18
100
AcDb2dPolyline
 66
1
 70
129
  0
VERTEX
  5
3E
100
AcDbEntity
  8
ObszarDR10
100
AcDbVertex
100
AcDb2dVertex
 10
7571540.66000000015
 20
5723849.54999999981
  0
VERTEX
  5
3F
100
AcDbEntity
  8
ObszarDR10
100
AcDbVertex
100
AcDb2dVertex
 10
7571522.26999999955
 20
5723838.24000000022
  0
VERTEX
  5
40
100
AcDbEntity
  8
ObszarDR10
100
AcDbVertex
100
AcDb2dVertex
 10
7571510.76999999955
 20
5723843.80999999959
  0
VERTEX
  5
41
100
AcDbEntity
  8
ObszarDR10
100
AcDbVertex
100
AcDb2dVertex
 10
7571442.05999999959
 20
5723970.76999999955
  0
VERTEX
  5
42
100
AcDbEntity
  8
ObszarDR10
100
AcDbVertex
100
AcDb2dVertex
 10
7571467.95000000019
 20
5723981.66000000015
  0
SEQEND
  5
43
100
AcDbEntity
  8
ObszarDR10
  0
POLYLINE
  5
44
100
AcDbEntity
  8
ObszarDR10
  6
CONTINUOUS
370
18
100
AcDb2dPolyline
 66
1
 70
129
  0
VERTEX
  5
45
100
AcDbEntity
  8
ObszarDR10
100
AcDbVertex
100
AcDb2dVertex
 10
7571442.05999999959
 20
5723970.76999999955
  0
VERTEX
  5
46
100
AcDbEntity
  8
ObszarDR10
100
AcDbVertex
100
AcDb2dVertex
 10
7571510.76999999955
 20
5723843.80999999959
  0
VERTEX
  5
47
100
AcDbEntity
  8
ObszarDR10
100
AcDbVertex
100
AcDb2dVertex
 10
7571471.87000000011
 20
5723862.63999999966
  0
VERTEX
  5
48
100
AcDbEntity
  8
ObszarDR10
100
AcDbVertex
100
AcDb2dVertex
 10
7571416.66000000015
 20
5723960.08999999985
  0
SEQEND
  5
49
100
AcDbEntity
  8
ObszarDR10
  0
POLYLINE
  5
4A
100
AcDbEntity
  8
ObszarDR10
  6
CONTINUOUS
370
18
100
AcDb2dPolyline
 66
1
 70
129
  0
VERTEX
  5
4B
100
AcDbEntity
  8
ObszarDR10
100
AcDbVertex
100
AcDb2dVertex
 10
7571467.95000000019
 20
5723981.66000000015
  0
VERTEX
  5
4C
100
AcDbEntity
  8
ObszarDR10
100
AcDbVertex
100
AcDb2dVertex
 10
7571442.05999999959
 20
5723970.76999999955
  0
VERTEX
  5
4D
100
AcDbEntity
  8
ObszarDR10
100
AcDbVertex
100
AcDb2dVertex
 10
7571416.66000000015
 20
5723960.08999999985
  0
VERTEX
  5
4E
100
AcDbEntity
  8
ObszarDR10
100
AcDbVertex
100
AcDb2dVertex
 10
7571471.87000000011
 20
5723862.63999999966
  0
VERTEX
  5
4F
100
AcDbEntity
  8
ObszarDR10
100
AcDbVertex
100
AcDb2dVertex
 10
7571510.76999999955
 20
5723843.80999999959
  0
VERTEX
  5
50
100
AcDbEntity
  8
ObszarDR10
100
AcDbVertex
100
AcDb2dVertex
 10
7571522.26999999955
 20
5723838.24000000022
  0
VERTEX
  5
51
100
AcDbEntity
  8
ObszarDR10
100
AcDbVertex
100
AcDb2dVertex
 10
7571518.23000000045
 20
5723835.75
  0
VERTEX
  5
52
100
AcDbEntity
  8
ObszarDR10
100
AcDbVertex
100
AcDb2dVertex
 10
7571469.0
 20
5723859.58999999985
  0
VERTEX
  5
53
100
AcDbEntity
  8
ObszarDR10
100
AcDbVertex
100
AcDb2dVertex
 10
7571373.44000000041
 20
5724025.04000000004
  0
VERTEX
  5
54
100
AcDbEntity
  8
ObszarDR10
100
AcDbVertex
100
AcDb2dVertex
 10
7571426.71999999974
 20
5724056.55999999959
  0
SEQEND
  5
55
100
AcDbEntity
  8
ObszarDR10
  0
POLYLINE
  5
56
100
AcDbEntity
  8
ObszarDR10
  6
CONTINUOUS
370
18
100
AcDb2dPolyline
 66
1
 70
129
  0
VERTEX
  5
57
100
AcDbEntity
  8
ObszarDR10
100
AcDbVertex
100
AcDb2dVertex
 10
7571387.91000000015
 20
5724127.08000000007
  0
VERTEX
  5
58
100
AcDbEntity
  8
ObszarDR10
100
AcDbVertex
100
AcDb2dVertex
 10
7571333.58000000007
 20
5724092.38999999966
  0
VERTEX
  5
59
100
AcDbEntity
  8
ObszarDR10
100
AcDbVertex
100
AcDb2dVertex
 10
7571328.41000000015
 20
5724077.0
  0
VERTEX
  5
5A
100
AcDbEntity
  8
ObszarDR10
100
AcDbVertex
100
AcDb2dVertex
 10
7571294.21999999974
 20
5724052.3200000003
  0
VERTEX
  5
5B
100
AcDbEntity
  8
ObszarDR10
100
AcDbVertex
100
AcDb2dVertex
 10
7571235.28000000026
 20
5724152.29999999981
  0
VERTEX
  5
5C
100
AcDbEntity
  8
ObszarDR10
100
AcDbVertex
100
AcDb2dVertex
 10
7571268.65000000037
 20
5724171.41000000015
  0
VERTEX
  5
5D
100
AcDbEntity
  8
ObszarDR10
100
AcDbVertex
100
AcDb2dVertex
 10
7571341.46999999974
 20
5724211.45000000019
  0
SEQEND
  5
5E
100
AcDbEntity
  8
ObszarDR10
  0
POLYLINE
  5
5F
100
AcDbEntity
  8
ObszarDR10
  6
CONTINUOUS
370
18
100
AcDb2dPolyline
 66
1
 70
129
  0
VERTEX
  5
60
100
AcDbEntity
  8
ObszarDR10
100
AcDbVertex
100
AcDb2dVertex
 10
7571729.6799999997
 20
5724428.33999999985
  0
VERTEX
  5
61
100
AcDbEntity
  8
ObszarDR10
100
AcDbVertex
100
AcDb2dVertex
 10
7571742.36000000034
 20
5724435.58000000007
  0
VERTEX
  5
62
100
AcDbEntity
  8
ObszarDR10
100
AcDbVertex
100
AcDb2dVertex
 10
7571931.44000000041
 20
5724089.71999999974
  0
VERTEX
  5
63
100
AcDbEntity
  8
ObszarDR10
100
AcDbVertex
100
AcDb2dVertex
 10
7571919.29999999981
 20
5724082.33999999985
  0
SEQEND
  5
64
100
AcDbEntity
  8
ObszarDR10
  0
POLYLINE
  5
65
100
AcDbEntity
  8
ObszarDR10
  6
CONTINUOUS
370
18
100
AcDb2dPolyline
 66
1
 70
129
  0
VERTEX
  5
66
100
AcDbEntity
  8
ObszarDR10
100
AcDbVertex
100
AcDb2dVertex
 10
7571729.6799999997
 20
5724428.33999999985
  0
VERTEX
  5
67
100
AcDbEntity
  8
ObszarDR10
100
AcDbVertex
100
AcDb2dVertex
 10
7571919.29999999981
 20
5724082.33999999985
  0
VERTEX
  5
68
100
AcDbEntity
  8
ObszarDR10
100
AcDbVertex
100
AcDb2dVertex
 10
7571895.20999999996
 20
5724067.69000000041
  0
VERTEX
  5
69
100
AcDbEntity
  8
ObszarDR10
100
AcDbVertex
100
AcDb2dVertex
 10
7571704.9299999997
 20
5724414.20999999996
  0
SEQEND
  5
6A
100
AcDbEntity
  8
ObszarDR10
  0
POLYLINE
  5
6B
100
AcDbEntity
  8
ObszarDR10
  6
CONTINUOUS
370
18
100
AcDb2dPolyline
 66
1
 70
129
  0
VERTEX
  5
6C
100
AcDbEntity
  8
ObszarDR10
100
AcDbVertex
100
AcDb2dVertex
 10
7571779.16000000015
 20
5724456.58000000007
  0
VERTEX
  5
6D
100
AcDbEntity
  8
ObszarDR10
100
AcDbVertex
100
AcDb2dVertex
 10
7571965.87000000011
 20
5724113.90000000037
  0
VERTEX
  5
6E
100
AcDbEntity
  8
ObszarDR10
100
AcDbVertex
100
AcDb2dVertex
 10
7571949.80999999959
 20
5724100.88999999966
  0
VERTEX
  5
6F
100
AcDbEntity
  8
ObszarDR10
100
AcDbVertex
100
AcDb2dVertex
 10
7571760.6799999997
 20
5724446.04000000004
  0
SEQEND
  5
70
100
AcDbEntity
  8
ObszarDR10
  0
POLYLINE
  5
71
100
AcDbEntity
  8
ObszarDR10
  6
CONTINUOUS
370
18
100
AcDb2dPolyline
 66
1
 70
129
  0
VERTEX
  5
72
100
AcDbEntity
  8
ObszarDR10
100
AcDbVertex
100
AcDb2dVertex
 10
7571931.44000000041
 20
5724089.71999999974
  0
VERTEX
  5
73
100
AcDbEntity
  8
ObszarDR10
100
AcDbVertex
100
AcDb2dVertex
 10
7571742.36000000034
 20
5724435.58000000007
  0
VERTEX
  5
74
100
AcDbEntity
  8
ObszarDR10
100
AcDbVertex
100
AcDb2dVertex
 10
7571760.6799999997
 20
5724446.04000000004
  0
VERTEX
  5
75
100
AcDbEntity
  8
ObszarDR10
100
AcDbVertex
100
AcDb2dVertex
 10
7571949.80999999959
 20
5724100.88999999966
  0
SEQEND
  5
76
100
AcDbEntity
  8
ObszarDR10
  0
POLYLINE
  5
77
100
AcDbEntity
  8
ObszarDR10
  6
CONTINUOUS
370
18
100
AcDb2dPolyline
 66
1
 70
129
  0
VERTEX
  5
78
100
AcDbEntity
  8
ObszarDR10
100
AcDbVertex
100
AcDb2dVertex
 10
7571822.16999999993
 20
5724022.75
  0
VERTEX
  5
79
100
AcDbEntity
  8
ObszarDR10
100
AcDbVertex
100
AcDb2dVertex
 10
7571725.69000000041
 20
5724198.11000000034
  0
VERTEX
  5
7A
100
AcDbEntity
  8
ObszarDR10
100
AcDbVertex
100
AcDb2dVertex
 10
7571630.24000000022
 20
5724371.58000000007
  0
VERTEX
  5
7B
100
AcDbEntity
  8
ObszarDR10
100
AcDbVertex
100
AcDb2dVertex
 10
7571667.58000000007
 20
5724392.90000000037
  0
VERTEX
  5
7C
100
AcDbEntity
  8
ObszarDR10
100
AcDbVertex
100
AcDb2dVertex
 10
7571858.51999999955
 20
5724045.12000000011
  0
SEQEND
  5
7D
100
AcDbEntity
  8
ObszarDR10
  0
POLYLINE
  5
7E
100
AcDbEntity
  8
ObszarDR10
  6
CONTINUOUS
370
18
100
AcDb2dPolyline
 66
1
 70
129
  0
VERTEX
  5
7F
100
AcDbEntity
  8
ObszarDR10
100
AcDbVertex
100
AcDb2dVertex
 10
7572062.48000000045
 20
5723844.80999999959
  0
VERTEX
  5
80
100
AcDbEntity
  8
ObszarDR10
100
AcDbVertex
100
AcDb2dVertex
 10
7572025.5700000003
 20
5723793.0700000003
  0
VERTEX
  5
81
100
AcDbEntity
  8
ObszarDR10
100
AcDbVertex
100
AcDb2dVertex
 10
7571872.25999999978
 20
5724044.1799999997
  0
VERTEX
  5
82
100
AcDbEntity
  8
ObszarDR10
100
AcDbVertex
100
AcDb2dVertex
 10
7571899.40000000037
 20
5724060.87999999989
  0
VERTEX
  5
83
100
AcDbEntity
  8
ObszarDR10
100
AcDbVertex
100
AcDb2dVertex
 10
7571922.41000000015
 20
5724074.70999999996
  0
SEQEND
  5
84
100
AcDbEntity
  8
ObszarDR10
  0
POLYLINE
  5
85
100
AcDbEntity
  8
ObszarDR10
  6
CONTINUOUS
370
18
100
AcDb2dPolyline
 66
1
 70
129
  0
VERTEX
  5
86
100
AcDbEntity
  8
ObszarDR10
100
AcDbVertex
100
AcDb2dVertex
 10
7571704.9299999997
 20
5724414.20999999996
  0
VERTEX
  5
87
100
AcDbEntity
  8
ObszarDR10
100
AcDbVertex
100
AcDb2dVertex
 10
7571895.20999999996
 20
5724067.69000000041
  0
VERTEX
  5
88
100
AcDbEntity
  8
ObszarDR10
100
AcDbVertex
100
AcDb2dVertex
 10
7571877.80999999959
 20
5724056.99000000022
  0
VERTEX
  5
89
100
AcDbEntity
  8
ObszarDR10
100
AcDbVertex
100
AcDb2dVertex
 10
7571686.59999999963
 20
5724403.75
  0
SEQEND
  5
8A
100
AcDbEntity
  8
ObszarDR10
  0
POLYLINE
  5
8B
100
AcDbEntity
  8
ObszarDR10
  6
CONTINUOUS
370
18
100
AcDb2dPolyline
 66
1
 70
129
  0
VERTEX
  5
8C
100
AcDbEntity
  8
ObszarDR10
100
AcDbVertex
100
AcDb2dVertex
 10
7571858.51999999955
 20
5724045.12000000011
  0
VERTEX
  5
8D
100
AcDbEntity
  8
ObszarDR10
100
AcDbVertex
100
AcDb2dVertex
 10
7571667.58000000007
 20
5724392.90000000037
  0
VERTEX
  5
8E
100
AcDbEntity
  8
ObszarDR10
100
AcDbVertex
100
AcDb2dVertex
 10
7571686.59999999963
 20
5724403.75
  0
VERTEX
  5
8F
100
AcDbEntity
  8
ObszarDR10
100
AcDbVertex
100
AcDb2dVertex
 10
7571877.80999999959
 20
5724056.99000000022
  0
SEQEND
  5
90
100
AcDbEntity
  8
ObszarDR10
  0
POLYLINE
  5
91
100
AcDbEntity
  8
ObszarDR10
  6
CONTINUOUS
370
18
100
AcDb2dPolyline
 66
1
 70
129
  0
VERTEX
  5
92
100
AcDbEntity
  8
ObszarDR10
100
AcDbVertex
100
AcDb2dVertex
 10
7571426.71999999974
 20
5724056.55999999959
  0
VERTEX
  5
93
100
AcDbEntity
  8
ObszarDR10
100
AcDbVertex
100
AcDb2dVertex
 10
7571373.44000000041
 20
5724025.04000000004
  0
VERTEX
  5
94
100
AcDbEntity
  8
ObszarDR10
100
AcDbVertex
100
AcDb2dVertex
 10
7571360.62000000011
 20
5724017.45999999996
  0
VERTEX
  5
95
100
AcDbEntity
  8
ObszarDR10
100
AcDbVertex
100
AcDb2dVertex
 10
7571328.41000000015
 20
5724077.0
  0
VERTEX
  5
96
100
AcDbEntity
  8
ObszarDR10
100
AcDbVertex
100
AcDb2dVertex
 10
7571333.58000000007
 20
5724092.38999999966
  0
VERTEX
  5
97
100
AcDbEntity
  8
ObszarDR10
100
AcDbVertex
100
AcDb2dVertex
 10
7571387.91000000015
 20
5724127.08000000007
  0
VERTEX
  5
98
100
AcDbEntity
  8
ObszarDR10
100
AcDbVertex
100
AcDb2dVertex
 10
7571393.34999999963
 20
5724117.19000000041
  0
SEQEND
  5
99
100
AcDbEntity
  8
ObszarDR10
  0
POLYLINE
  5
9A
100
AcDbEntity
  8
ObszarDR10
  6
CONTINUOUS
370
18
100
AcDb2dPolyline
 66
1
 70
129
  0
VERTEX
  5
9B
100
AcDbEntity
  8
ObszarDR10
100
AcDbVertex
100
AcDb2dVertex
 10
7571387.91000000015
 20
5724127.08000000007
  0
VERTEX
  5
9C
100
AcDbEntity
  8
ObszarDR10
100
AcDbVertex
100
AcDb2dVertex
 10
7571341.46999999974
 20
5724211.45000000019
  0
VERTEX
  5
9D
100
AcDbEntity
  8
ObszarDR10
100
AcDbVertex
100
AcDb2dVertex
 10
7571414.91000000015
 20
5724251.8200000003
  0
VERTEX
  5
9E
100
AcDbEntity
  8
ObszarDR10
100
AcDbVertex
100
AcDb2dVertex
 10
7571461.11000000034
 20
5724167.21999999974
  0
VERTEX
  5
9F
100
AcDbEntity
  8
ObszarDR10
100
AcDbVertex
100
AcDb2dVertex
 10
7571427.30999999959
 20
5724142.25999999978
  0
VERTEX
  5
A0
100
AcDbEntity
  8
ObszarDR10
100
AcDbVertex
100
AcDb2dVertex
 10
7571393.34999999963
 20
5724117.19000000041
  0
SEQEND
  5
A1
100
AcDbEntity
  8
ObszarDR10
  0
POLYLINE
  5
A2
100
AcDbEntity
  8
ObszarDR10
  6
CONTINUOUS
370
18
100
AcDb2dPolyline
 66
1
 70
129
  0
VERTEX
  5
A3
100
AcDbEntity
  8
ObszarDR10
100
AcDbVertex
100
AcDb2dVertex
 10
7571427.30999999959
 20
5724142.25999999978
  0
VERTEX
  5
A4
100
AcDbEntity
  8
ObszarDR10
100
AcDbVertex
100
AcDb2dVertex
 10
7571461.11000000034
 20
5724167.21999999974
  0
VERTEX
  5
A5
100
AcDbEntity
  8
ObszarDR10
100
AcDbVertex
100
AcDb2dVertex
 10
7571611.05999999959
 20
5723892.87000000011
  0
VERTEX
  5
A6
100
AcDbEntity
  8
ObszarDR10
100
AcDbVertex
100
AcDb2dVertex
 10
7571576.70000000019
 20
5723871.71999999974
  0
SEQEND
  5
A7
100
AcDbEntity
  8
ObszarDR10
  0
POLYLINE
  5
A8
100
AcDbEntity
  8
ObszarDR10
  6
CONTINUOUS
370
18
100
AcDb2dPolyline
 66
1
 70
129
  0
VERTEX
  5
A9
100
AcDbEntity
  8
ObszarDR10
100
AcDbVertex
100
AcDb2dVertex
 10
7571540.66000000015
 20
5723849.54999999981
  0
VERTEX
  5
AA
100
AcDbEntity
  8
ObszarDR10
100
AcDbVertex
100
AcDb2dVertex
 10
7571467.95000000019
 20
5723981.66000000015
  0
VERTEX
  5
AB
100
AcDbEntity
  8
ObszarDR10
100
AcDbVertex
100
AcDb2dVertex
 10
7571426.71999999974
 20
5724056.55999999959
  0
VERTEX
  5
AC
100
AcDbEntity
  8
ObszarDR10
100
AcDbVertex
100
AcDb2dVertex
 10
7571393.34999999963
 20
5724117.19000000041
  0
VERTEX
  5
AD
100
AcDbEntity
  8
ObszarDR10
100
AcDbVertex
100
AcDb2dVertex
 10
7571427.30999999959
 20
5724142.25999999978
  0
VERTEX
  5
AE
100
AcDbEntity
  8
ObszarDR10
100
AcDbVertex
100
AcDb2dVertex
 10
7571576.70000000019
 20
5723871.71999999974
  0
SEQEND
  5
AF
100
AcDbEntity
  8
ObszarDR10
  0
POLYLINE
  5
B0
100
AcDbEntity
  8
ObszarDR10
  6
CONTINUOUS
370
18
100
AcDb2dPolyline
 66
1
 70
129
  0
VERTEX
  5
B1
100
AcDbEntity
  8
ObszarDR10
100
AcDbVertex
100
AcDb2dVertex
 10
7571725.69000000041
 20
5724198.11000000034
  0
VERTEX
  5
B2
100
AcDbEntity
  8
ObszarDR10
100
AcDbVertex
100
AcDb2dVertex
 10
7571678.20999999996
 20
5724171.54999999981
  0
VERTEX
  5
B3
100
AcDbEntity
  8
ObszarDR10
100
AcDbVertex
100
AcDb2dVertex
 10
7571590.19000000041
 20
5724348.71999999974
  0
VERTEX
  5
B4
100
AcDbEntity
  8
ObszarDR10
100
AcDbVertex
100
AcDb2dVertex
 10
7571630.24000000022
 20
5724371.58000000007
  0
SEQEND
  5
B5
100
AcDbEntity
  8
ObszarDR10
  0
POLYLINE
  5
B6
100
AcDbEntity
  8
ObszarDR10
  6
CONTINUOUS
370
18
100
AcDb2dPolyline
 66
1
 70
129
  0
VERTEX
  5
B7
100
AcDbEntity
  8
ObszarDR10
100
AcDbVertex
100
AcDb2dVertex
 10
7571412.54000000004
 20
5723761.33000000007
  0
VERTEX
  5
B8
100
AcDbEntity
  8
ObszarDR10
100
AcDbVertex
100
AcDb2dVertex
 10
7571703.87999999989
 20
5723940.76999999955
  0
VERTEX
  5
B9
100
AcDbEntity
  8
ObszarDR10
100
AcDbVertex
100
AcDb2dVertex
 10
7571800.87000000011
 20
5723778.0700000003
  0
VERTEX
  5
BA
100
AcDbEntity
  8
ObszarDR10
100
AcDbVertex
100
AcDb2dVertex
 10
7571780.5700000003
 20
5723777.21999999974
  0
VERTEX
  5
BB
100
AcDbEntity
  8
ObszarDR10
100
AcDbVertex
100
AcDb2dVertex
 10
7571587.75
 20
5723769.53000000026
  0
VERTEX
  5
BC
100
AcDbEntity
  8
ObszarDR10
100
AcDbVertex
100
AcDb2dVertex
 10
7571453.30999999959
 20
5723762.80999999959
  0
SEQEND
  5
BD
100
AcDbEntity
  8
ObszarDR10
  0
POLYLINE
  5
BE
100
AcDbEntity
  8
ObszarDR10
  6
CONTINUOUS
370
18
100
AcDb2dPolyline
 66
1
 70
129
  0
VERTEX
  5
BF
100
AcDbEntity
  8
ObszarDR10
100
AcDbVertex
100
AcDb2dVertex
 10
7571461.11000000034
 20
5724167.21999999974
  0
VERTEX
  5
C0
100
AcDbEntity
  8
ObszarDR10
100
AcDbVertex
100
AcDb2dVertex
 10
7571414.91000000015
 20
5724251.8200000003
  0
VERTEX
  5
C1
100
AcDbEntity
  8
ObszarDR10
100
AcDbVertex
100
AcDb2dVertex
 10
7571435.33999999985
 20
5724263.1799999997
  0
VERTEX
  5
C2
100
AcDbEntity
  8
ObszarDR10
100
AcDbVertex
100
AcDb2dVertex
 10
7571630.87000000011
 20
5723905.04999999981
  0
VERTEX
  5
C3
100
AcDbEntity
  8
ObszarDR10
100
AcDbVertex
100
AcDb2dVertex
 10
7571611.05999999959
 20
5723892.87000000011
  0
SEQEND
  5
C4
100
AcDbEntity
  8
ObszarDR10
  0
POLYLINE
  5
C5
100
AcDbEntity
  8
ObszarDR10
  6
CONTINUOUS
370
18
100
AcDb2dPolyline
 66
1
 70
129
  0
VERTEX
  5
C6
100
AcDbEntity
  8
ObszarDR10
100
AcDbVertex
100
AcDb2dVertex
 10
7571487.20000000019
 20
5724291.5700000003
  0
VERTEX
  5
C7
100
AcDbEntity
  8
ObszarDR10
100
AcDbVertex
100
AcDb2dVertex
 10
7571582.20999999996
 20
5724117.84999999963
  0
VERTEX
  5
C8
100
AcDbEntity
  8
ObszarDR10
100
AcDbVertex
100
AcDb2dVertex
 10
7571681.54999999981
 20
5723936.23000000045
  0
VERTEX
  5
C9
100
AcDbEntity
  8
ObszarDR10
100
AcDbVertex
100
AcDb2dVertex
 10
7571658.9299999997
 20
5723922.30999999959
  0
VERTEX
  5
CA
100
AcDbEntity
  8
ObszarDR10
100
AcDbVertex
100
AcDb2dVertex
 10
7571466.08000000007
 20
5724280.28000000026
  0
SEQEND
  5
CB
100
AcDbEntity
  8
ObszarDR10
  0
POLYLINE
  5
CC
100
AcDbEntity
  8
ObszarDR10
  6
CONTINUOUS
370
18
100
AcDb2dPolyline
 66
1
 70
129
  0
VERTEX
  5
CD
100
AcDbEntity
  8
ObszarDR10
100
AcDbVertex
100
AcDb2dVertex
 10
7571630.87000000011
 20
5723905.04999999981
  0
VERTEX
  5
CE
100
AcDbEntity
  8
ObszarDR10
100
AcDbVertex
100
AcDb2dVertex
 10
7571435.33999999985
 20
5724263.1799999997
  0
VERTEX
  5
CF
100
AcDbEntity
  8
ObszarDR10
100
AcDbVertex
100
AcDb2dVertex
 10
7571466.08000000007
 20
5724280.28000000026
  0
VERTEX
  5
D0
100
AcDbEntity
  8
ObszarDR10
100
AcDbVertex
100
AcDb2dVertex
 10
7571658.9299999997
 20
5723922.30999999959
  0
SEQEND
  5
D1
100
AcDbEntity
  8
ObszarDR10
  0
POLYLINE
  5
D2
100
AcDbEntity
  8
ObszarDR10
  6
CONTINUOUS
370
18
100
AcDb2dPolyline
 66
1
 70
129
  0
VERTEX
  5
D3
100
AcDbEntity
  8
ObszarDR10
100
AcDbVertex
100
AcDb2dVertex
 10
7571582.20999999996
 20
5724117.84999999963
  0
VERTEX
  5
D4
100
AcDbEntity
  8
ObszarDR10
100
AcDbVertex
100
AcDb2dVertex
 10
7571592.99000000022
 20
5724123.87999999989
  0
VERTEX
  5
D5
100
AcDbEntity
  8
ObszarDR10
100
AcDbVertex
100
AcDb2dVertex
 10
7571609.59999999963
 20
5724133.16999999993
  0
VERTEX
  5
D6
100
AcDbEntity
  8
ObszarDR10
100
AcDbVertex
100
AcDb2dVertex
 10
7571654.04000000004
 20
5724158.03000000026
  0
VERTEX
  5
D7
100
AcDbEntity
  8
ObszarDR10
100
AcDbVertex
100
AcDb2dVertex
 10
7571751.59999999963
 20
5723979.33999999985
  0
VERTEX
  5
D8
100
AcDbEntity
  8
ObszarDR10
100
AcDbVertex
100
AcDb2dVertex
 10
7571681.54999999981
 20
5723936.23000000045
  0
SEQEND
  5
D9
100
AcDbEntity
  8
ObszarDR10
  0
HATCH
  5
DA
100
AcDbEntity
  8
ObszarDR10
  6
CONTINUOUS
420
16767232
370
18
100
AcDbHatch
 10
0.0
 20
0.0
 30
0.0
210
0.0
220
0.0
230
1.0
  2
SOLID
 70
1
 71
1
 91
1
 92
3
 72
0
 73
1
 93
6
 10
7571582.20999999996
 20
5724117.84999999963
 10
7571592.99000000022
 20
5724123.87999999989
 10
7571609.59999999963
 20
5724133.16999999993
 10
7571654.04000000004
 20
5724158.03000000026
 10
7571751.59999999963
 20
5723979.33999999985
 10
7571681.54999999981
 20
5723936.23000000045
 97
0
 75
0
 76
1
 98
0
  0
POLYLINE
  5
DB
100
AcDbEntity
  8
ObszarDR10
  6
CONTINUOUS
370
18
100
AcDb2dPolyline
 66
1
 70
129
  0
VERTEX
  5
DC
100
AcDbEntity
  8
ObszarDR10
100
AcDbVertex
100
AcDb2dVertex
 10
7571592.99000000022
 20
5724123.87999999989
  0
VERTEX
  5
DD
100
AcDbEntity
  8
ObszarDR10
100
AcDbVertex
100
AcDb2dVertex
 10
7571498.11000000034
 20
5724297.66999999993
  0
VERTEX
  5
DE
100
AcDbEntity
  8
ObszarDR10
100
AcDbVertex
100
AcDb2dVertex
 10
7571515.12999999989
 20
5724307.0
  0
VERTEX
  5
DF
100
AcDbEntity
  8
ObszarDR10
100
AcDbVertex
100
AcDb2dVertex
 10
7571609.59999999963
 20
5724133.16999999993
  0
SEQEND
  5
E0
100
AcDbEntity
  8
ObszarDR10
  0
POLYLINE
  5
E1
100
AcDbEntity
  8
ObszarDR10
  6
CONTINUOUS
370
18
100
AcDb2dPolyline
 66
1
 70
129
  0
VERTEX
  5
E2
100
AcDbEntity
  8
ObszarDR10
100
AcDbVertex
100
AcDb2dVertex
 10
7571654.04000000004
 20
5724158.03000000026
  0
VERTEX
  5
E3
100
AcDbEntity
  8
ObszarDR10
100
AcDbVertex
100
AcDb2dVertex
 10
7571609.59999999963
 20
5724133.16999999993
  0
VERTEX
  5
E4
100
AcDbEntity
  8
ObszarDR10
100
AcDbVertex
100
AcDb2dVertex
 10
7571515.12999999989
 20
5724307.0
  0
VERTEX
  5
E5
100
AcDbEntity
  8
ObszarDR10
100
AcDbVertex
100
AcDb2dVertex
 10
7571564.23000000045
 20
5724333.91000000015
  0
VERTEX
  5
E6
100
AcDbEntity
  8
ObszarDR10
100
AcDbVertex
100
AcDb2dVertex
 10
7571590.19000000041
 20
5724348.71999999974
  0
VERTEX
  5
E7
100
AcDbEntity
  8
ObszarDR10
100
AcDbVertex
100
AcDb2dVertex
 10
7571678.20999999996
 20
5724171.54999999981
  0
SEQEND
  5
E8
100
AcDbEntity
  8
ObszarDR10
  0
POLYLINE
  5
E9
100
AcDbEntity
  8
ObszarDR10
  6
CONTINUOUS
370
18
100
AcDb2dPolyline
 66
1
 70
129
  0
VERTEX
  5
EA
100
AcDbEntity
  8
ObszarDR10
100
AcDbVertex
100
AcDb2dVertex
 10
7572062.48000000045
 20
5723844.80999999959
  0
VERTEX
  5
EB
100
AcDbEntity
  8
ObszarDR10
100
AcDbVertex
100
AcDb2dVertex
 10
7571922.41000000015
 20
5724074.70999999996
  0
VERTEX
  5
EC
100
AcDbEntity
  8
ObszarDR10
100
AcDbVertex
100
AcDb2dVertex
 10
7571947.08999999985
 20
5724089.74000000022
  0
VERTEX
  5
ED
100
AcDbEntity
  8
ObszarDR10
100
AcDbVertex
100
AcDb2dVertex
 10
7572081.36000000034
 20
5723870.36000000034
  0
SEQEND
  5
EE
100
AcDbEntity
  8
ObszarDR10
  0
POLYLINE
  5
EF
100
AcDbEntity
  8
ObszarDR10
  6
CONTINUOUS
370
18
100
AcDb2dPolyline
 66
1
 70
129
  0
VERTEX
  5
F0
100
AcDbEntity
  8
ObszarDR10
100
AcDbVertex
100
AcDb2dVertex
 10
7572081.36000000034
 20
5723870.36000000034
  0
VERTEX
  5
F1
100
AcDbEntity
  8
ObszarDR10
100
AcDbVertex
100
AcDb2dVertex
 10
7571947.08999999985
 20
5724089.74000000022
  0
VERTEX
  5
F2
100
AcDbEntity
  8
ObszarDR10
100
AcDbVertex
100
AcDb2dVertex
 10
7571984.33000000007
 20
5724112.41000000015
  0
VERTEX
  5
F3
100
AcDbEntity
  8
ObszarDR10
100
AcDbVertex
100
AcDb2dVertex
 10
7572106.00999999978
 20
5723904.33000000007
  0
SEQEND
  5
F4
100
AcDbEntity
  8
ObszarDR10
  0
POLYLINE
  5
F5
100
AcDbEntity
  8
ObszarDR10
  6
CONTINUOUS
370
18
100
AcDb2dPolyline
 66
1
 70
129
  0
VERTEX
  5
F6
100
AcDbEntity
  8
ObszarDR10
100
AcDbVertex
100
AcDb2dVertex
 10
7572049.25
 20
5724151.9299999997
  0
VERTEX
  5
F7
100
AcDbEntity
  8
ObszarDR10
100
AcDbVertex
100
AcDb2dVertex
 10
7572154.05999999959
 20
5723970.5700000003
  0
VERTEX
  5
F8
100
AcDbEntity
  8
ObszarDR10
100
AcDbVertex
100
AcDb2dVertex
 10
7572130.08999999985
 20
5723937.53000000026
  0
VERTEX
  5
F9
100
AcDbEntity
  8
ObszarDR10
100
AcDbVertex
100
AcDb2dVertex
 10
7572016.87999999989
 20
5724132.21999999974
  0
SEQEND
  5
FA
100
AcDbEntity
  8
ObszarDR10
  0
POLYLINE
  5
FB
100
AcDbEntity
  8
ObszarDR10
  6
CONTINUOUS
370
18
100
AcDb2dPolyline
 66
1
 70
129
  0
VERTEX
  5
FC
100
AcDbEntity
  8
ObszarDR10
100
AcDbVertex
100
AcDb2dVertex
 10
7572106.00999999978
 20
5723904.33000000007
  0
VERTEX
  5
FD
100
AcDbEntity
  8
ObszarDR10
100
AcDbVertex
100
AcDb2dVertex
 10
7571984.33000000007
 20
5724112.41000000015
  0
VERTEX
  5
FE
100
AcDbEntity
  8
ObszarDR10
100
AcDbVertex
100
AcDb2dVertex
 10
7572016.87999999989
 20
5724132.21999999974
  0
VERTEX
  5
FF
100
AcDbEntity
  8
ObszarDR10
100
AcDbVertex
100
AcDb2dVertex
 10
7572130.08999999985
 20
5723937.53000000026
  0
SEQEND
  5
100
100
AcDbEntity
  8
ObszarDR10
  0
POLYLINE
  5
101
100
AcDbEntity
  8
ObszarDR10
  6
CONTINUOUS
370
18
100
AcDb2dPolyline
 66
1
 70
129
  0
VERTEX
  5
102
100
AcDbEntity
  8
ObszarDR10
100
AcDbVertex
100
AcDb2dVertex
 10
7571800.87000000011
 20
5723778.0700000003
  0
VERTEX
  5
103
100
AcDbEntity
  8
ObszarDR10
100
AcDbVertex
100
AcDb2dVertex
 10
7571703.87999999989
 20
5723940.76999999955
  0
VERTEX
  5
104
100
AcDbEntity
  8
ObszarDR10
100
AcDbVertex
100
AcDb2dVertex
 10
7571822.63999999966
 20
5724013.99000000022
  0
VERTEX
  5
105
100
AcDbEntity
  8
ObszarDR10
100
AcDbVertex
100
AcDb2dVertex
 10
7571963.04000000004
 20
5723784.30999999959
  0
SEQEND
  5
106
100
AcDbEntity
  8
ObszarDR10
  0
POLYLINE
  5
107
100
AcDbEntity
  8
ObszarDR10
  6
CONTINUOUS
370
18
100
AcDb2dPolyline
 66
1
 70
129
  0
VERTEX
  5
108
100
AcDbEntity
  8
ObszarDR10
100
AcDbVertex
100
AcDb2dVertex
 10
7571872.25999999978
 20
5724044.1799999997
  0
VERTEX
  5
109
100
AcDbEntity
  8
ObszarDR10
100
AcDbVertex
100
AcDb2dVertex
 10
7572025.5700000003
 20
5723793.0700000003
  0
VERTEX
  5
10A
100
AcDbEntity
  8
ObszarDR10
100
AcDbVertex
100
AcDb2dVertex
 10
7572021.37000000011
 20
5723787.1799999997
  0
VERTEX
  5
10B
100
AcDbEntity
  8
ObszarDR10
100
AcDbVertex
100
AcDb2dVertex
 10
7571963.04000000004
 20
5723784.30999999959
  0
VERTEX
  5
10C
100
AcDbEntity
  8
ObszarDR10
100
AcDbVertex
100
AcDb2dVertex
 10
7571822.63999999966
 20
5724013.99000000022
  0
SEQEND
  5
10D
100
AcDbEntity
  8
ObszarDR10
  0
POLYLINE
  5
10E
100
AcDbEntity
  8
ObszarDR10
  6
CONTINUOUS
370
18
100
AcDb2dPolyline
 66
1
 70
129
  0
VERTEX
  5
10F
100
AcDbEntity
  8
ObszarDR10
100
AcDbVertex
100
AcDb2dVertex
 10
7571373.44000000041
 20
5724025.04000000004
  0
VERTEX
  5
110
100
AcDbEntity
  8
ObszarDR10
100
AcDbVertex
100
AcDb2dVertex
 10
7571469.0
 20
5723859.58999999985
  0
VERTEX
  5
111
100
AcDbEntity
  8
ObszarDR10
100
AcDbVertex
100
AcDb2dVertex
 10
7571518.23000000045
 20
5723835.75
  0
VERTEX
  5
112
100
AcDbEntity
  8
ObszarDR10
100
AcDbVertex
100
AcDb2dVertex
 10
7571408.54999999981
 20
5723768.26999999955
  0
VERTEX
  5
113
100
AcDbEntity
  8
ObszarDR10
100
AcDbVertex
100
AcDb2dVertex
 10
7571377.37999999989
 20
5723822.79000000004
  0
VERTEX
  5
114
100
AcDbEntity
  8
ObszarDR10
100
AcDbVertex
100
AcDb2dVertex
 10
7571358.13999999966
 20
5723856.44000000041
  0
VERTEX
  5
115
100
AcDbEntity
  8
ObszarDR10
100
AcDbVertex
100
AcDb2dVertex
 10
7571302.84999999963
 20
5723953.13999999966
  0
VERTEX
  5
116
100
AcDbEntity
  8
ObszarDR10
100
AcDbVertex
100
AcDb2dVertex
 10
7571301.37000000011
 20
5723955.73000000045
  0
VERTEX
  5
117
100
AcDbEntity
  8
ObszarDR10
100
AcDbVertex
100
AcDb2dVertex
 10
7571262.34999999963
 20
5724023.96999999974
  0
VERTEX
  5
118
100
AcDbEntity
  8
ObszarDR10
100
AcDbVertex
100
AcDb2dVertex
 10
7571232.25999999978
 20
5724076.58999999985
  0
VERTEX
  5
119
100
AcDbEntity
  8
ObszarDR10
100
AcDbVertex
100
AcDb2dVertex
 10
7571200.40000000037
 20
5724132.3200000003
  0
VERTEX
  5
11A
100
AcDbEntity
  8
ObszarDR10
100
AcDbVertex
100
AcDb2dVertex
 10
7571235.28000000026
 20
5724152.29999999981
  0
VERTEX
  5
11B
100
AcDbEntity
  8
ObszarDR10
100
AcDbVertex
100
AcDb2dVertex
 10
7571294.21999999974
 20
5724052.3200000003
  0
VERTEX
  5
11C
100
AcDbEntity
  8
ObszarDR10
100
AcDbVertex
100
AcDb2dVertex
 10
7571328.41000000015
 20
5724077.0
  0
VERTEX
  5
11D
100
AcDbEntity
  8
ObszarDR10
100
AcDbVertex
100
AcDb2dVertex
 10
7571360.62000000011
 20
5724017.45999999996
  0
SEQEND
  5
11E
100
AcDbEntity
  8
ObszarDR10
  0
POLYLINE
  5
11F
100
AcDbEntity
  8
ObszarDR10
  6
CONTINUOUS
370
18
100
AcDb2dPolyline
 66
1
 70
129
  0
VERTEX
  5
120
100
AcDbEntity
  8
ObszarDR10
100
AcDbVertex
100
AcDb2dVertex
 10
7572977.79000000004
 20
5724729.51999999955
  0
VERTEX
  5
121
100
AcDbEntity
  8
ObszarDR10
100
AcDbVertex
100
AcDb2dVertex
 10
7573044.55999999959
 20
5724770.0
  0
VERTEX
  5
122
100
AcDbEntity
  8
ObszarDR10
100
AcDbVertex
100
AcDb2dVertex
 10
7573074.28000000026
 20
5724788.01999999955
  0
VERTEX
  5
123
100
AcDbEntity
  8
ObszarDR10
100
AcDbVertex
100
AcDb2dVertex
 10
7573078.12999999989
 20
5724790.3200000003
  0
VERTEX
  5
124
100
AcDbEntity
  8
ObszarDR10
100
AcDbVertex
100
AcDb2dVertex
 10
7573082.45999999996
 20
5724792.91999999993
  0
VERTEX
  5
125
100
AcDbEntity
  8
ObszarDR10
100
AcDbVertex
100
AcDb2dVertex
 10
7573086.79000000004
 20
5724795.51999999955
  0
VERTEX
  5
126
100
AcDbEntity
  8
ObszarDR10
100
AcDbVertex
100
AcDb2dVertex
 10
7573107.48000000045
 20
5724807.9299999997
  0
VERTEX
  5
127
100
AcDbEntity
  8
ObszarDR10
100
AcDbVertex
100
AcDb2dVertex
 10
7573127.26999999955
 20
5724819.80999999959
  0
VERTEX
  5
128
100
AcDbEntity
  8
ObszarDR10
100
AcDbVertex
100
AcDb2dVertex
 10
7573165.4299999997
 20
5724840.75
  0
VERTEX
  5
129
100
AcDbEntity
  8
ObszarDR10
100
AcDbVertex
100
AcDb2dVertex
 10
7573175.34999999963
 20
5724846.20000000019
  0
VERTEX
  5
12A
100
AcDbEntity
  8
ObszarDR10
100
AcDbVertex
100
AcDb2dVertex
 10
7573248.49000000022
 20
5724890.87000000011
  0
VERTEX
  5
12B
100
AcDbEntity
  8
ObszarDR10
100
AcDbVertex
100
AcDb2dVertex
 10
7573281.08000000007
 20
5724910.71999999974
  0
VERTEX
  5
12C
100
AcDbEntity
  8
ObszarDR10
100
AcDbVertex
100
AcDb2dVertex
 10
7573329.34999999963
 20
5724940.05999999959
  0
VERTEX
  5
12D
100
AcDbEntity
  8
ObszarDR10
100
AcDbVertex
100
AcDb2dVertex
 10
7573381.16000000015
 20
5724974.30999999959
  0
VERTEX
  5
12E
100
AcDbEntity
  8
ObszarDR10
100
AcDbVertex
100
AcDb2dVertex
 10
7573408.03000000026
 20
5724990.59999999963
  0
VERTEX
  5
12F
100
AcDbEntity
  8
ObszarDR10
100
AcDbVertex
100
AcDb2dVertex
 10
7573442.8200000003
 20
5725011.69000000041
  0
VERTEX
  5
130
100
AcDbEntity
  8
ObszarDR10
100
AcDbVertex
100
AcDb2dVertex
 10
7573459.58000000007
 20
5725021.51999999955
  0
VERTEX
  5
131
100
AcDbEntity
  8
ObszarDR10
100
AcDbVertex
100
AcDb2dVertex
 10
7573480.65000000037
 20
5725033.87999999989
  0
VERTEX
  5
132
100
AcDbEntity
  8
ObszarDR10
100
AcDbVertex
100
AcDb2dVertex
 10
7573490.37000000011
 20
5725031.08000000007
  0
VERTEX
  5
133
100
AcDbEntity
  8
ObszarDR10
100
AcDbVertex
100
AcDb2dVertex
 10
7573475.71999999974
 20
5725019.83999999985
  0
VERTEX
  5
134
100
AcDbEntity
  8
ObszarDR10
100
AcDbVertex
100
AcDb2dVertex
 10
7573450.0
 20
5725004.1799999997
  0
VERTEX
  5
135
100
AcDbEntity
  8
ObszarDR10
100
AcDbVertex
100
AcDb2dVertex
 10
7573390.33999999985
 20
5724967.86000000034
  0
VERTEX
  5
136
100
AcDbEntity
  8
ObszarDR10
100
AcDbVertex
100
AcDb2dVertex
 10
7573349.20999999996
 20
5724942.63999999966
  0
VERTEX
  5
137
100
AcDbEntity
  8
ObszarDR10
100
AcDbVertex
100
AcDb2dVertex
 10
7573296.28000000026
 20
5724907.87999999989
  0
VERTEX
  5
138
100
AcDbEntity
  8
ObszarDR10
100
AcDbVertex
100
AcDb2dVertex
 10
7573273.91000000015
 20
5724894.20999999996
  0
VERTEX
  5
139
100
AcDbEntity
  8
ObszarDR10
100
AcDbVertex
100
AcDb2dVertex
 10
7573230.86000000034
 20
5724867.90000000037
  0
VERTEX
  5
13A
100
AcDbEntity
  8
ObszarDR10
100
AcDbVertex
100
AcDb2dVertex
 10
7573210.95999999996
 20
5724855.80999999959
  0
VERTEX
  5
13B
100
AcDbEntity
  8
ObszarDR10
100
AcDbVertex
100
AcDb2dVertex
 10
7573197.95000000019
 20
5724847.91000000015
  0
VERTEX
  5
13C
100
AcDbEntity
  8
ObszarDR10
100
AcDbVertex
100
AcDb2dVertex
 10
7573192.6799999997
 20
5724844.70000000019
  0
VERTEX
  5
13D
100
AcDbEntity
  8
ObszarDR10
100
AcDbVertex
100
AcDb2dVertex
 10
7573146.69000000041
 20
5724816.71999999974
  0
VERTEX
  5
13E
100
AcDbEntity
  8
ObszarDR10
100
AcDbVertex
100
AcDb2dVertex
 10
7573125.91999999993
 20
5724804.08999999985
  0
VERTEX
  5
13F
100
AcDbEntity
  8
ObszarDR10
100
AcDbVertex
100
AcDb2dVertex
 10
7573105.16000000015
 20
5724791.45999999996
  0
VERTEX
  5
140
100
AcDbEntity
  8
ObszarDR10
100
AcDbVertex
100
AcDb2dVertex
 10
7573079.75
 20
5724776.0
  0
VERTEX
  5
141
100
AcDbEntity
  8
ObszarDR10
100
AcDbVertex
100
AcDb2dVertex
 10
7572997.94000000041
 20
5724728.29000000004
  0
VERTEX
  5
142
100
AcDbEntity
  8
ObszarDR10
100
AcDbVertex
100
AcDb2dVertex
 10
7572942.38999999966
 20
5724694.36000000034
  0
VERTEX
  5
143
100
AcDbEntity
  8
ObszarDR10
100
AcDbVertex
100
AcDb2dVertex
 10
7572791.11000000034
 20
5724602.08000000007
  0
VERTEX
  5
144
100
AcDbEntity
  8
ObszarDR10
100
AcDbVertex
100
AcDb2dVertex
 10
7572716.45999999996
 20
5724556.87999999989
  0
VERTEX
  5
145
100
AcDbEntity
  8
ObszarDR10
100
AcDbVertex
100
AcDb2dVertex
 10
7572685.04999999981
 20
5724537.86000000034
  0
VERTEX
  5
146
100
AcDbEntity
  8
ObszarDR10
100
AcDbVertex
100
AcDb2dVertex
 10
7572682.25
 20
5724536.16000000015
  0
VERTEX
  5
147
100
AcDbEntity
  8
ObszarDR10
100
AcDbVertex
100
AcDb2dVertex
 10
7572599.01999999955
 20
5724485.78000000026
  0
VERTEX
  5
148
100
AcDbEntity
  8
ObszarDR10
100
AcDbVertex
100
AcDb2dVertex
 10
7572469.08999999985
 20
5724407.08000000007
  0
VERTEX
  5
149
100
AcDbEntity
  8
ObszarDR10
100
AcDbVertex
100
AcDb2dVertex
 10
7572452.08999999985
 20
5724396.74000000022
  0
VERTEX
  5
14A
100
AcDbEntity
  8
ObszarDR10
100
AcDbVertex
100
AcDb2dVertex
 10
7572442.48000000045
 20
5724390.90000000037
  0
VERTEX
  5
14B
100
AcDbEntity
  8
ObszarDR10
100
AcDbVertex
100
AcDb2dVertex
 10
7572439.62000000011
 20
5724389.16999999993
  0
VERTEX
  5
14C
100
AcDbEntity
  8
ObszarDR10
100
AcDbVertex
100
AcDb2dVertex
 10
7572200.23000000045
 20
5724243.71999999974
  0
VERTEX
  5
14D
100
AcDbEntity
  8
ObszarDR10
100
AcDbVertex
100
AcDb2dVertex
 10
7572172.61000000034
 20
5724227.03000000026
  0
VERTEX
  5
14E
100
AcDbEntity
  8
ObszarDR10
100
AcDbVertex
100
AcDb2dVertex
 10
7572169.87999999989
 20
5724225.37000000011
  0
VERTEX
  5
14F
100
AcDbEntity
  8
ObszarDR10
100
AcDbVertex
100
AcDb2dVertex
 10
7572117.0
 20
5724193.15000000037
  0
VERTEX
  5
150
100
AcDbEntity
  8
ObszarDR10
100
AcDbVertex
100
AcDb2dVertex
 10
7572097.94000000041
 20
5724181.5700000003
  0
VERTEX
  5
151
100
AcDbEntity
  8
ObszarDR10
100
AcDbVertex
100
AcDb2dVertex
 10
7572049.25
 20
5724151.9299999997
  0
VERTEX
  5
152
100
AcDbEntity
  8
ObszarDR10
100
AcDbVertex
100
AcDb2dVertex
 10
7572016.87999999989
 20
5724132.21999999974
  0
VERTEX
  5
153
100
AcDbEntity
  8
ObszarDR10
100
AcDbVertex
100
AcDb2dVertex
 10
7571984.33000000007
 20
5724112.41000000015
  0
VERTEX
  5
154
100
AcDbEntity
  8
ObszarDR10
100
AcDbVertex
100
AcDb2dVertex
 10
7571947.08999999985
 20
5724089.74000000022
  0
VERTEX
  5
155
100
AcDbEntity
  8
ObszarDR10
100
AcDbVertex
100
AcDb2dVertex
 10
7571922.41000000015
 20
5724074.70999999996
  0
VERTEX
  5
156
100
AcDbEntity
  8
ObszarDR10
100
AcDbVertex
100
AcDb2dVertex
 10
7571899.40000000037
 20
5724060.87999999989
  0
VERTEX
  5
157
100
AcDbEntity
  8
ObszarDR10
100
AcDbVertex
100
AcDb2dVertex
 10
7571872.25999999978
 20
5724044.1799999997
  0
VERTEX
  5
158
100
AcDbEntity
  8
ObszarDR10
100
AcDbVertex
100
AcDb2dVertex
 10
7571822.63999999966
 20
5724013.99000000022
  0
VERTEX
  5
159
100
AcDbEntity
  8
ObszarDR10
100
AcDbVertex
100
AcDb2dVertex
 10
7571703.87999999989
 20
5723940.76999999955
  0
VERTEX
  5
15A
100
AcDbEntity
  8
ObszarDR10
100
AcDbVertex
100
AcDb2dVertex
 10
7571412.54000000004
 20
5723761.33000000007
  0
VERTEX
  5
15B
100
AcDbEntity
  8
ObszarDR10
100
AcDbVertex
100
AcDb2dVertex
 10
7571396.13999999966
 20
5723760.62999999989
  0
VERTEX
  5
15C
100
AcDbEntity
  8
ObszarDR10
100
AcDbVertex
100
AcDb2dVertex
 10
7571408.54999999981
 20
5723768.26999999955
  0
VERTEX
  5
15D
100
AcDbEntity
  8
ObszarDR10
100
AcDbVertex
100
AcDb2dVertex
 10
7571518.23000000045
 20
5723835.75
  0
VERTEX
  5
15E
100
AcDbEntity
  8
ObszarDR10
100
AcDbVertex
100
AcDb2dVertex
 10
7571522.26999999955
 20
5723838.24000000022
  0
VERTEX
  5
15F
100
AcDbEntity
  8
ObszarDR10
100
AcDbVertex
100
AcDb2dVertex
 10
7571540.66000000015
 20
5723849.54999999981
  0
VERTEX
  5
160
100
AcDbEntity
  8
ObszarDR10
100
AcDbVertex
100
AcDb2dVertex
 10
7571576.70000000019
 20
5723871.71999999974
  0
VERTEX
  5
161
100
AcDbEntity
  8
ObszarDR10
100
AcDbVertex
100
AcDb2dVertex
 10
7571611.05999999959
 20
5723892.87000000011
  0
VERTEX
  5
162
100
AcDbEntity
  8
ObszarDR10
100
AcDbVertex
100
AcDb2dVertex
 10
7571630.87000000011
 20
5723905.04999999981
  0
VERTEX
  5
163
100
AcDbEntity
  8
ObszarDR10
100
AcDbVertex
100
AcDb2dVertex
 10
7571658.9299999997
 20
5723922.30999999959
  0
VERTEX
  5
164
100
AcDbEntity
  8
ObszarDR10
100
AcDbVertex
100
AcDb2dVertex
 10
7571681.54999999981
 20
5723936.23000000045
  0
VERTEX
  5
165
100
AcDbEntity
  8
ObszarDR10
100
AcDbVertex
100
AcDb2dVertex
 10
7571751.59999999963
 20
5723979.33999999985
  0
VERTEX
  5
166
100
AcDbEntity
  8
ObszarDR10
100
AcDbVertex
100
AcDb2dVertex
 10
7571822.16999999993
 20
5724022.75
  0
VERTEX
  5
167
100
AcDbEntity
  8
ObszarDR10
100
AcDbVertex
100
AcDb2dVertex
 10
7571858.51999999955
 20
5724045.12000000011
  0
VERTEX
  5
168
100
AcDbEntity
  8
ObszarDR10
100
AcDbVertex
100
AcDb2dVertex
 10
7571877.80999999959
 20
5724056.99000000022
  0
VERTEX
  5
169
100
AcDbEntity
  8
ObszarDR10
100
AcDbVertex
100
AcDb2dVertex
 10
7571895.20999999996
 20
5724067.69000000041
  0
VERTEX
  5
16A
100
AcDbEntity
  8
ObszarDR10
100
AcDbVertex
100
AcDb2dVertex
 10
7571919.29999999981
 20
5724082.33999999985
  0
VERTEX
  5
16B
100
AcDbEntity
  8
ObszarDR10
100
AcDbVertex
100
AcDb2dVertex
 10
7571931.44000000041
 20
5724089.71999999974
  0
VERTEX
  5
16C
100
AcDbEntity
  8
ObszarDR10
100
AcDbVertex
100
AcDb2dVertex
 10
7571949.80999999959
 20
5724100.88999999966
  0
VERTEX
  5
16D
100
AcDbEntity
  8
ObszarDR10
100
AcDbVertex
100
AcDb2dVertex
 10
7571965.87000000011
 20
5724113.90000000037
  0
VERTEX
  5
16E
100
AcDbEntity
  8
ObszarDR10
100
AcDbVertex
100
AcDb2dVertex
 10
7572002.79000000004
 20
5724136.45000000019
  0
VERTEX
  5
16F
100
AcDbEntity
  8
ObszarDR10
100
AcDbVertex
100
AcDb2dVertex
 10
7572039.70999999996
 20
5724159.0
  0
VERTEX
  5
170
100
AcDbEntity
  8
ObszarDR10
100
AcDbVertex
100
AcDb2dVertex
 10
7572076.62000000011
 20
5724181.54999999981
  0
VERTEX
  5
171
100
AcDbEntity
  8
ObszarDR10
100
AcDbVertex
100
AcDb2dVertex
 10
7572113.54000000004
 20
5724204.09999999963
  0
VERTEX
  5
172
100
AcDbEntity
  8
ObszarDR10
100
AcDbVertex
100
AcDb2dVertex
 10
7572165.96999999974
 20
5724232.34999999963
  0
VERTEX
  5
173
100
AcDbEntity
  8
ObszarDR10
100
AcDbVertex
100
AcDb2dVertex
 10
7572168.53000000026
 20
5724233.91000000015
  0
VERTEX
  5
174
100
AcDbEntity
  8
ObszarDR10
100
AcDbVertex
100
AcDb2dVertex
 10
7572193.50999999978
 20
5724249.08000000007
  0
VERTEX
  5
175
100
AcDbEntity
  8
ObszarDR10
100
AcDbVertex
100
AcDb2dVertex
 10
7572216.86000000034
 20
5724263.25999999978
  0
VERTEX
  5
176
100
AcDbEntity
  8
ObszarDR10
100
AcDbVertex
100
AcDb2dVertex
 10
7572240.90000000037
 20
5724277.86000000034
  0
VERTEX
  5
177
100
AcDbEntity
  8
ObszarDR10
100
AcDbVertex
100
AcDb2dVertex
 10
7572265.11000000034
 20
5724292.55999999959
  0
VERTEX
  5
178
100
AcDbEntity
  8
ObszarDR10
100
AcDbVertex
100
AcDb2dVertex
 10
7572421.25999999978
 20
5724387.37999999989
  0
VERTEX
  5
179
100
AcDbEntity
  8
ObszarDR10
100
AcDbVertex
100
AcDb2dVertex
 10
7572423.88999999966
 20
5724388.98000000045
  0
VERTEX
  5
17A
100
AcDbEntity
  8
ObszarDR10
100
AcDbVertex
100
AcDb2dVertex
 10
7572438.59999999963
 20
5724397.91000000015
  0
VERTEX
  5
17B
100
AcDbEntity
  8
ObszarDR10
100
AcDbVertex
100
AcDb2dVertex
 10
7572441.41000000015
 20
5724399.62000000011
  0
VERTEX
  5
17C
100
AcDbEntity
  8
ObszarDR10
100
AcDbVertex
100
AcDb2dVertex
 10
7572479.86000000034
 20
5724422.96999999974
  0
VERTEX
  5
17D
100
AcDbEntity
  8
ObszarDR10
100
AcDbVertex
100
AcDb2dVertex
 10
7572486.61000000034
 20
5724427.0700000003
  0
VERTEX
  5
17E
100
AcDbEntity
  8
ObszarDR10
100
AcDbVertex
100
AcDb2dVertex
 10
7572611.78000000026
 20
5724502.86000000034
  0
VERTEX
  5
17F
100
AcDbEntity
  8
ObszarDR10
100
AcDbVertex
100
AcDb2dVertex
 10
7572644.86000000034
 20
5724522.87999999989
  0
VERTEX
  5
180
100
AcDbEntity
  8
ObszarDR10
100
AcDbVertex
100
AcDb2dVertex
 10
7572675.09999999963
 20
5724541.19000000041
  0
VERTEX
  5
181
100
AcDbEntity
  8
ObszarDR10
100
AcDbVertex
100
AcDb2dVertex
 10
7572677.90000000037
 20
5724542.88999999966
  0
VERTEX
  5
182
100
AcDbEntity
  8
ObszarDR10
100
AcDbVertex
100
AcDb2dVertex
 10
7572749.20999999996
 20
5724586.51999999955
  0
VERTEX
  5
183
100
AcDbEntity
  8
ObszarDR10
100
AcDbVertex
100
AcDb2dVertex
 10
7572789.70999999996
 20
5724611.28000000026
  0
VERTEX
  5
184
100
AcDbEntity
  8
ObszarDR10
100
AcDbVertex
100
AcDb2dVertex
 10
7572823.87000000011
 20
5724632.16000000015
  0
VERTEX
  5
185
100
AcDbEntity
  8
ObszarDR10
100
AcDbVertex
100
AcDb2dVertex
 10
7572878.94000000041
 20
5724669.58999999985
  0
VERTEX
  5
186
100
AcDbEntity
  8
ObszarDR10
100
AcDbVertex
100
AcDb2dVertex
 10
7572952.53000000026
 20
5724714.20000000019
  0
SEQEND
  5
187
100
AcDbEntity
  8
ObszarDR10
  0
TEXT
  5
188
100
AcDbEntity
  8
ObszarDR10
370
50
100
AcDbText
 39
0.50
 10
7571538.22000000067
 20
5724206.50999999978
 40
2.50
  1
446
 50
0.00
 41
0.66
  7
STANDARD
 72
1
 11
7571540.09500000067
 21
5724207.75999999978
100
AcDbText
 73
2
  0
TEXT
  5
189
100
AcDbEntity
  8
ObszarDR10
370
50
100
AcDbText
 39
0.50
 10
7571736.23000000045
 20
5724087.47499999963
 40
2.50
  1
449
 50
0.00
 41
0.66
  7
STANDARD
 72
1
 11
7571738.10500000045
 21
5724088.72499999963
100
AcDbText
 73
2
  0
TEXT
  5
18A
100
AcDbEntity
  8
ObszarDR10
370
50
100
AcDbText
 39
0.50
 10
7571570.68999999948
 20
5724105.68999999948
 40
2.50
  1
224/3
 50
0.00
 41
0.66
  7
STANDARD
 72
1
 11
7571573.81499999948
 21
5724106.93999999948
100
AcDbText
 73
2
  0
TEXT
  5
18B
100
AcDbEntity
  8
ObszarDR10
370
50
100
AcDbText
 39
0.50
 10
7571665.02999999933
 20
5724045.88000000082
 40
2.50
  1
448
 50
0.00
 41
0.66
  7
STANDARD
 72
1
 11
7571666.90499999933
 21
5724047.13000000082
100
AcDbText
 73
2
  0
TEXT
  5
18C
100
AcDbEntity
  8
ObszarDR10
370
50
100
AcDbText
 39
0.50
 10
7571550.73000000045
 20
5724214.18999999948
 40
2.50
  1
225/1
 50
0.00
 41
0.66
  7
STANDARD
 72
1
 11
7571553.85500000045
 21
5724215.43999999948
100
AcDbText
 73
2
  0
TEXT
  5
18D
100
AcDbEntity
  8
ObszarDR10
370
50
100
AcDbText
 39
0.50
 10
7571593.54499999993
 20
5724239.6950000003
 40
2.50
  1
225/2
 50
0.00
 41
0.66
  7
STANDARD
 72
1
 11
7571596.66999999993
 21
5724240.9450000003
100
AcDbText
 73
2
  0
TEXT
  5
18E
100
AcDbEntity
  8
ObszarDR10
370
50
100
AcDbText
 39
0.50
 10
7572440.12999999989
 20
5724396.00499999989
 40
2.50
  1
153/1
 50
0.00
 41
0.66
  7
STANDARD
 72
1
 11
7572443.25499999989
 21
5724397.25499999989
100
AcDbText
 73
2
  0
TEXT
  5
18F
100
AcDbEntity
  8
0
370
50
100
AcDbText
 39
0.50
 10
7571583.53113397118
 20
5724119.18126776535
 40
2.50
  1
-12.35-
 50
-331.00
 41
0.66
  7
STANDARD
 72
1
 11
7571587.7616032064
 21
5724120.57346009836
100
AcDbText
 73
1
  0
TEXT
  5
190
100
AcDbEntity
  8
0
370
50
100
AcDbText
 39
0.50
 10
7571597.22613397148
 20
5724126.8412677655
 40
2.50
  1
-19.03-
 50
-331.00
 41
0.66
  7
STANDARD
 72
1
 11
7571601.45660320669
 21
5724128.2334600985
100
AcDbText
 73
1
  0
TEXT
  5
191
100
AcDbEntity
  8
0
370
50
100
AcDbText
 39
0.50
 10
7571627.75113397185
 20
5724143.91626776475
 40
2.50
  1
-50.92-
 50
-331.00
 41
0.66
  7
STANDARD
 72
1
 11
7571631.98160320707
 21
5724145.30846009776
100
AcDbText
 73
1
  0
TEXT
  5
192
100
AcDbEntity
  8
0
370
50
100
AcDbText
 39
0.50
 10
7571700.8332617525
 20
5724073.30050334614
 40
2.50
  1
-203.59-
 50
-61.00
 41
0.66
  7
STANDARD
 72
1
 11
7571702.52846009843
 21
5724068.52339679375
100
AcDbText
 73
1
  0
TEXT
  5
193
100
AcDbEntity
  8
0
370
50
100
AcDbText
 39
0.50
 10
7571712.59982994571
 20
5723955.89062726777
 40
2.50
  1
-82.25-
 50
-328.00
 41
0.66
  7
STANDARD
 72
1
 11
7571716.75163975358
 21
5723957.50231730193
100
AcDbText
 73
1
  0
TEXT
  5
194
100
AcDbEntity
  8
0
370
50
100
AcDbText
 39
0.50
 10
7571629.89326175209
 20
5724031.65550334565
 40
2.50
  1
-207.01-
 50
-61.00
 41
0.66
  7
STANDARD
 72
1
 11
7571631.58846009802
 21
5724026.87839679327
100
AcDbText
 73
1
  0
TEXT
  5
195
100
AcDbEntity
  8
0
370
70
100
AcDbText
 39
0.70
 10
7571612.75335227512
 20
5724130.21185958572
 40
3.50
  1
-82.30-
 50
-330.80
 41
0.66
  7
STANDARD
 72
1
 11
7571618.66916960105
 21
5724132.18159090821
100
AcDbText
 73
1
  0
ENDSEC
  0
SECTION
  2
OBJECTS
  0
DICTIONARY
  5
196
330
0
100
AcDbDictionary
280
0
281
1
  3
ACAD_GROUP
350
197
  3
ACAD_LAYOUT
350
198
  3
ACAD_MLINESTYLE
350
199
  3
ACAD_PLOTSETTINGS
350
19A
  3
ACAD_PLOTSTYLENAME
350
19B
  3
ACAD_WIPEOUT_VARS
350
19C
  0
DICTIONARY
  5
197
102
{ACAD_REACTORS
330
196
102
}
330
196
100
AcDbDictionary
280
0
281
1
  0
DICTIONARY
  5
198
102
{ACAD_REACTORS
330
196
102
}
330
196
100
AcDbDictionary
280
0
281
1
  3
Layout
350
18
  3
Model
350
16
  0
DICTIONARY
  5
199
102
{ACAD_REACTORS
330
196
102
}
330
196
100
AcDbDictionary
280
0
281
1
  3
Standard
350
19D
  0
DICTIONARY
  5
19A
102
{ACAD_REACTORS
330
196
102
}
330
196
100
AcDbDictionary
280
0
281
1
  0
ACDBDICTIONARYWDFLT
  5
19B
102
{ACAD_REACTORS
330
196
102
}
330
196
100
AcDbDictionary
281
1
  3
Normal
350
9
100
AcDbDictionaryWithDefault
340
9
  0
WIPEOUTVARIABLES
  5
19C
102
{ACAD_REACTORS
330
196
102
}
330
196
100
AcDbWipeoutVariables
 70
0
  0
LAYOUT
  5
18
100
AcDbPlotSettings
  1

  2

  4

  6

 40
0.0
 41
0.0
 42
0.0
 43
0.0
 44
0.0
 45
0.0
 46
0.0
 47
0.0
 48
0.0
 49
0.0
140
0.0
141
0.0
142
1.0
143
1.0
 70
688
 72
1
 73
0
 74
5
  7

 75
0
147
1.0
148
0.0
149
0.0
100
AcDbLayout
  1
Layout
 70
1
 71
1
 10
0.0
 20
0.0
 11
420.0
 21
297.0
 12
0.0
 22
0.0
 32
0.0
 14
100000000000000000000.0
 24
100000000000000000000.0
 34
100000000000000000000.0
 15
-100000000000000000000.0
 25
-100000000000000000000.0
 35
-100000000000000000000.0
146
0.0
 13
0.0
 23
0.0
 33
0.0
 16
1.0
 26
0.0
 36
0.0
 17
0.0
 27
1.0
 37
0.0
 76
0
330
17
  0
LAYOUT
  5
16
100
AcDbPlotSettings
  1

  2

  4

  6

 40
0.0
 41
0.0
 42
0.0
 43
0.0
 44
0.0
 45
0.0
 46
0.0
 47
0.0
 48
0.0
 49
0.0
140
0.0
141
0.0
142
1.0
143
1.0
 70
1712
 72
1
 73
0
 74
0
  7

 75
0
147
1.0
148
0.0
149
0.0
100
AcDbLayout
  1
Model
 70
1
 71
0
 10
0.0
 20
0.0
 11
12.0
 21
9.0
 12
0.0
 22
0.0
 32
0.0
 14
0.0
 24
0.0
 34
0.0
 15
0.0
 25
0.0
 35
0.0
146
0.0
 13
0.0
 23
0.0
 33
0.0
 16
1.0
 26
0.0
 36
0.0
 17
0.0
 27
1.0
 37
0.0
 76
0
330
15
  0
MLINESTYLE
  5
19D
102
{ACAD_REACTORS
330
199
102
}
330
199
100
AcDbMlineStyle
  2
Standard
 70
0
  3

 62
256
 51
90.0
 52
90.0
  2
Standard
 71
2
 49
0.5
 62
256
  6
ByLayer
 49
-0.5
 62
256
  6
ByLayer
  0
ACDBPLACEHOLDER
  5
9
  0
ENDSEC
  0
EOF
